Yume no Naka he - Kareshi Kanojo no Jijou
transcribed by smoo (http://www.cjas.org/~smoo/tabs.htm)
lyrics from http://members.tripod.com/animelyrics/

fills
  fill1    fill2   fill3     fill4        chorus
e|--------|-------|---------|-----------||-8-7-5-7-5-|-5-3---3---|-7-5-3-5-3-|
B|-/5-5-3-|-------|---------|-1-1p0-1p0-||-----------|-----6---6-|-----------|
G|--------|-2-2-0-|---------|-----------||-----------|-----------|-----------|
D|--------|-------|-0-0-2-3-|-----------||-----------|-----------|-----------|
A|--------|-------|---------|-----------||-----------|-----------|-----------|
E|--------|-------|---------|-----------||-----------|-----------|-----------|


intro
   C             Am            C             Am
e|-------------|-------------|-------------|-------------|-------------------
B|-8-6-5-6-5-8-|-8-6-5-6-5---|-8-6-5-6-5-8-|-8-6-5-6-5---|-------------------
G|-------------|-------------|-------------|-------------|-------------------
D|-------------|-----------7-|-------------|-----------7-|-5-7-9-------------
A|-------------|-------------|-------------|-------------|-------------------
E|-------------|-------------|-------------|-------------|-------------------

C                     fill1 Am                     fill2
sagashi mono wa nan desuka  mitsuke nikuimono desu ka
F                               fill3
KABAN no naka mo tsukue no naka mo
G
sagashita keredo mitsukaranai noni
C                     fill4 Am				 fill2
mada mada sagasuki desuka   sore yori boku to odorimasen ka
F                        fill3  G
yume no naka he yume no naka he ittemitai to omoimasen ka

chorus
Am         F          G          Am
oh oh oh-, oh oh oh-, oh oh oh-, saa- 

C                  fill1 Am 			fill2                       
yasumu koto yurusarezu   warau koto wa tomerarete
F                      fill3
haitsukubatte haitsukubatte
G
ittai nani o sagashiteiru no ka
C                  fill4 Am				    fill1  
sagasu no oyame tatoki   mitsukaru koto mo yoku aru hanashi de
F                       fill3
odorimasho yume no naka he 
G
ittamitai to omoimasen ka

chorus
Am         F          G          Am
oh oh oh-, oh oh oh-, oh oh oh-, saa-

break
  C            Am          F                  G                                           
			       (17)     (17)      (19)     (19)
e|-----------|-----------|------13-------13-|------15-------15---------
B|-8-6-5-6-5-|-8-6-5-6-5-|---13-------13----|---15-------15------------
G|-----------|-----------|-14-------14------|-16-------16--------------
D|-----------|-----------|------------------|--------------------------
A|-----------|-----------|------------------|--------------------------
E|-----------|-----------|------------------|--------------------------

C                      fill1 Am                     fill2
sagashi mono wa nan desuka   mada mada sagasuki desuka
F                         fill3  G
yume no naka he yume no naka he  ittamitai to omoimasen ka

chorus
Am         F          G          Am
oh oh oh-, oh oh oh-, oh oh oh-, saa-
Am                             F
ah oh oh oh-(yume no naka he), oh oh oh-(yume no naka he)
G          Am
oh oh oh-, saa-

outro
   C             Am                C             Am
e|-------------|-----------------|-------------|-----------5-|--------------
B|-8-6-5-6-5-8-|-8-6-5-6-5-------|-8-6-5-6-5-8-|-8-6-5-6-5---|--------------
G|-------------|-----------------|-------------|-------------|--------------
D|-------------|-----------7-579-|-------------|-------------|--------------
A|-------------|-----------------|-------------|-------------|--------------
E|-------------|-----------------|-------------|-------------|--------------

Tillbaka till tab-sidan